Zoe Tabs

Human Space Volt

1 versions

TAB

            Human Space Volt Tab by Zoe


Human Space Volt

aqui esta rola esta bien cabron el solillo

intro. Em Bm 2x
1]------------------------------------------------------------------[
2]--8-7-8/12-7-8---------------8-7-8/12-7-8-------------------------[
3]---------------7-7-7/6---6-7--------------7-7/11-9-7-6--7---------[
4]-----------------------9------------------------------------------[
5]------------------------------------------------------------------[
6]------------------------------------------------------------------[

Em                        Bm       Em                        Bm  Em
i don't wanna live underground i just wanna make it home tonight no
                    Bm
one can see her and no one can find her
Em                   Bm Em                       Bm  Em
she rides a paper plane the television is their drug they gave
                    Bm
their eyes to the reich
Em                     Bm                    Em
no one can see her and no one could find her she was a junkie
                   F#
an alpha monkey an electronic nebula
                                G                          Bm
somewhere in the quantum land human space volt holly water need

some microwaves for redemption
G                           Bm                                 F#
human space volt holly wate need some microwaves for redemption

musika. (Em Bm)4x

  solillo (Em Bm) 2x
1]------------------------------------------------------------------[
2]--8-7-8/12-7-8---------------8-7-8/12-7-8-------------------------[
3]---------------7-7-7/6---6-7-------------7-7-7/11-9-7-6--7--------[
4]-----------------------9------------------------------------------[
5]------------------------------------------------------------------[
6]------------------------------------------------------------------[

Em                     Bm                    Em
no one can see her and no one could find her she was a junkie
                    F#
an alpha monkey an electronic nebula

somewhere in the quantum land

musika. (G Bm) 4x
1]------------------------------------------------------[
2]------------------------------------------------------[
3]------------------------------------------------------[
4]------------------------------------------------------[
5]-2-2-2-2-2-2-2-0-2-4-4-4-4-4-4-4-0-2-4-5-5-5-5-5-5-5--[
6]------------------------------------------------------[

G                             Bm
human space volt holly water need some microwaves for redemption
G                             Bm
human space volt holly water need some microwaves for redemption
G                             Bm
human space volt holly water need some microwaves for redemption
G                             Bm
human space volt holly water need some microwaves for redemption

dudas con rockero_metalero666@hotmail.com    

Added On December 16th, 2013

SHARE

Comments

blog comments powered by Disqus

ADVERTISEMENT